ISO-10303-21;
HEADER;
FILE_DESCRIPTION((''),'2;1');
FILE_NAME('LAMP','2024-09-17T18:45:36',('hasan'),(''),
'CREO PARAMETRIC BY PTC INC, 2024063','CREO PARAMETRIC BY PTC INC, 2024063','');
FILE_SCHEMA(('CONFIG_CONTROL_DESIGN'));
ENDSEC;
DATA;
#1=CARTESIAN_POINT('',(0.E0,0.E0,0.E0));
#2=DIRECTION('',(-1.E0,0.E0,0.E0));
#3=DIRECTION('',(0.E0,1.E0,0.E0));
#4=AXIS2_PLACEMENT_3D('',#1,#2,#3);
#6=DIRECTION('',(-1.E0,0.E0,0.E0));
#7=VECTOR('',#6,1.E0);
#8=CARTESIAN_POINT('',(0.E0,2.9E0,0.E0));
#9=LINE('',#8,#7);
#10=CARTESIAN_POINT('',(0.E0,0.E0,0.E0));
#11=DIRECTION('',(1.E0,0.E0,0.E0));
#12=DIRECTION('',(0.E0,1.E0,0.E0));
#13=AXIS2_PLACEMENT_3D('',#10,#11,#12);
#15=DIRECTION('',(-1.E0,0.E0,0.E0));
#16=VECTOR('',#15,1.E0);
#17=CARTESIAN_POINT('',(0.E0,-2.9E0,0.E0));
#18=LINE('',#17,#16);
#19=CARTESIAN_POINT('',(0.E0,0.E0,-1.5E0));
#20=DIRECTION('',(1.E0,0.E0,0.E0));
#21=DIRECTION('',(0.E0,0.E0,-1.E0));
#22=AXIS2_PLACEMENT_3D('',#19,#20,#21);
#24=CARTESIAN_POINT('',(0.E0,0.E0,-1.5E0));
#25=DIRECTION('',(1.E0,0.E0,0.E0));
#26=DIRECTION('',(0.E0,0.E0,1.E0));
#27=AXIS2_PLACEMENT_3D('',#24,#25,#26);
#29=CARTESIAN_POINT('',(0.E0,0.E0,1.5E0));
#30=DIRECTION('',(1.E0,0.E0,0.E0));
#31=DIRECTION('',(0.E0,0.E0,-1.E0));
#32=AXIS2_PLACEMENT_3D('',#29,#30,#31);
#34=CARTESIAN_POINT('',(0.E0,0.E0,1.5E0));
#35=DIRECTION('',(1.E0,0.E0,0.E0));
#36=DIRECTION('',(0.E0,0.E0,1.E0));
#37=AXIS2_PLACEMENT_3D('',#34,#35,#36);
#39=DIRECTION('',(1.E0,0.E0,0.E0));
#40=VECTOR('',#39,2.36E1);
#41=CARTESIAN_POINT('',(0.E0,0.E0,-2.E0));
#42=LINE('',#41,#40);
#43=DIRECTION('',(1.E0,0.E0,0.E0));
#44=VECTOR('',#43,2.36E1);
#45=CARTESIAN_POINT('',(0.E0,0.E0,-1.E0));
#46=LINE('',#45,#44);
#47=CARTESIAN_POINT('',(2.36E1,0.E0,-1.5E0));
#48=DIRECTION('',(1.E0,0.E0,0.E0));
#49=DIRECTION('',(0.E0,0.E0,-1.E0));
#50=AXIS2_PLACEMENT_3D('',#47,#48,#49);
#52=CARTESIAN_POINT('',(2.36E1,0.E0,-1.5E0));
#53=DIRECTION('',(1.E0,0.E0,0.E0));
#54=DIRECTION('',(0.E0,0.E0,1.E0));
#55=AXIS2_PLACEMENT_3D('',#52,#53,#54);
#57=CARTESIAN_POINT('',(2.36E1,0.E0,1.5E0));
#58=DIRECTION('',(1.E0,0.E0,0.E0));
#59=DIRECTION('',(0.E0,0.E0,-1.E0));
#60=AXIS2_PLACEMENT_3D('',#57,#58,#59);
#62=CARTESIAN_POINT('',(2.36E1,0.E0,1.5E0));
#63=DIRECTION('',(1.E0,0.E0,0.E0));
#64=DIRECTION('',(0.E0,0.E0,1.E0));
#65=AXIS2_PLACEMENT_3D('',#62,#63,#64);
#67=DIRECTION('',(1.E0,0.E0,0.E0));
#68=VECTOR('',#67,2.36E1);
#69=CARTESIAN_POINT('',(0.E0,0.E0,1.E0));
#70=LINE('',#69,#68);
#71=DIRECTION('',(1.E0,0.E0,0.E0));
#72=VECTOR('',#71,2.36E1);
#73=CARTESIAN_POINT('',(0.E0,0.E0,2.E0));
#74=LINE('',#73,#72);
#75=CARTESIAN_POINT('',(-1.E0,0.E0,0.E0));
#76=DIRECTION('',(1.E0,0.E0,0.E0));
#77=DIRECTION('',(0.E0,1.E0,0.E0));
#78=AXIS2_PLACEMENT_3D('',#75,#76,#77);
#80=CARTESIAN_POINT('',(-1.E0,0.E0,0.E0));
#81=DIRECTION('',(-1.E0,0.E0,0.E0));
#82=DIRECTION('',(0.E0,1.E0,0.E0));
#83=AXIS2_PLACEMENT_3D('',#80,#81,#82);
#85=CARTESIAN_POINT('',(-1.E0,0.E0,0.E0));
#86=DIRECTION('',(-1.E0,0.E0,0.E0));
#87=DIRECTION('',(0.E0,1.E0,0.E0));
#88=AXIS2_PLACEMENT_3D('',#85,#86,#87);
#90=DIRECTION('',(-1.E0,0.E0,0.E0));
#91=VECTOR('',#90,4.5E0);
#92=CARTESIAN_POINT('',(-1.E0,2.5E0,0.E0));
#93=LINE('',#92,#91);
#94=CARTESIAN_POINT('',(-1.E0,0.E0,0.E0));
#95=DIRECTION('',(1.E0,0.E0,0.E0));
#96=DIRECTION('',(0.E0,1.E0,0.E0));
#97=AXIS2_PLACEMENT_3D('',#94,#95,#96);
#99=DIRECTION('',(-1.E0,0.E0,0.E0));
#100=VECTOR('',#99,4.5E0);
#101=CARTESIAN_POINT('',(-1.E0,-2.5E0,0.E0));
#102=LINE('',#101,#100);
#103=CARTESIAN_POINT('',(-5.5E0,0.E0,0.E0));
#104=DIRECTION('',(0.E0,0.E0,1.E0));
#105=DIRECTION('',(0.E0,1.E0,0.E0));
#106=AXIS2_PLACEMENT_3D('',#103,#104,#105);
#108=CARTESIAN_POINT('',(-5.5E0,0.E0,0.E0));
#109=DIRECTION('',(1.E0,0.E0,0.E0));
#110=DIRECTION('',(0.E0,1.E0,0.E0));
#111=AXIS2_PLACEMENT_3D('',#108,#109,#110);
#113=CARTESIAN_POINT('',(-5.5E0,0.E0,0.E0));
#114=DIRECTION('',(0.E0,0.E0,-1.E0));
#115=DIRECTION('',(0.E0,-1.E0,0.E0));
#116=AXIS2_PLACEMENT_3D('',#113,#114,#115);
#118=CARTESIAN_POINT('',(-5.5E0,0.E0,0.E0));
#119=DIRECTION('',(-1.E0,0.E0,0.E0));
#120=DIRECTION('',(0.E0,1.E0,0.E0));
#121=AXIS2_PLACEMENT_3D('',#118,#119,#120);
#123=CARTESIAN_POINT('',(0.E0,2.9E0,0.E0));
#124=CARTESIAN_POINT('',(-1.E0,2.9E0,0.E0));
#125=VERTEX_POINT('',#123);
#126=VERTEX_POINT('',#124);
#127=CARTESIAN_POINT('',(-1.E0,2.5E0,0.E0));
#128=CARTESIAN_POINT('',(-5.5E0,2.5E0,0.E0));
#129=VERTEX_POINT('',#127);
#130=VERTEX_POINT('',#128);
#131=CARTESIAN_POINT('',(-8.E0,0.E0,0.E0));
#132=VERTEX_POINT('',#131);
#133=CARTESIAN_POINT('',(0.E0,-2.9E0,0.E0));
#134=CARTESIAN_POINT('',(-1.E0,-2.9E0,0.E0));
#135=VERTEX_POINT('',#133);
#136=VERTEX_POINT('',#134);
#137=CARTESIAN_POINT('',(-1.E0,-2.5E0,0.E0));
#138=CARTESIAN_POINT('',(-5.5E0,-2.5E0,0.E0));
#139=VERTEX_POINT('',#137);
#140=VERTEX_POINT('',#138);
#141=CARTESIAN_POINT('',(2.36E1,0.E0,-2.E0));
#142=CARTESIAN_POINT('',(2.36E1,0.E0,-1.E0));
#143=VERTEX_POINT('',#141);
#144=VERTEX_POINT('',#142);
#145=CARTESIAN_POINT('',(2.36E1,0.E0,1.E0));
#146=CARTESIAN_POINT('',(2.36E1,0.E0,2.E0));
#147=VERTEX_POINT('',#145);
#148=VERTEX_POINT('',#146);
#149=CARTESIAN_POINT('',(0.E0,0.E0,-2.E0));
#150=CARTESIAN_POINT('',(0.E0,0.E0,-1.E0));
#151=VERTEX_POINT('',#149);
#152=VERTEX_POINT('',#150);
#153=CARTESIAN_POINT('',(0.E0,0.E0,1.E0));
#154=CARTESIAN_POINT('',(0.E0,0.E0,2.E0));
#155=VERTEX_POINT('',#153);
#156=VERTEX_POINT('',#154);
#157=CARTESIAN_POINT('',(4.E-1,0.E0,0.E0));
#158=DIRECTION('',(-1.E0,0.E0,0.E0));
#159=DIRECTION('',(0.E0,1.E0,0.E0));
#160=AXIS2_PLACEMENT_3D('',#157,#158,#159);
#161=CYLINDRICAL_SURFACE('',#160,2.9E0);
#163=ORIENTED_EDGE('',*,*,#162,.T.);
#165=ORIENTED_EDGE('',*,*,#164,.T.);
#167=ORIENTED_EDGE('',*,*,#166,.F.);
#169=ORIENTED_EDGE('',*,*,#168,.F.);
#170=EDGE_LOOP('',(#163,#165,#167,#169));
#171=FACE_OUTER_BOUND('',#170,.F.);
#172=ADVANCED_FACE('',(#171),#161,.T.);
#173=CARTESIAN_POINT('',(4.E-1,0.E0,0.E0));
#174=DIRECTION('',(-1.E0,0.E0,0.E0));
#175=DIRECTION('',(0.E0,1.E0,0.E0));
#176=AXIS2_PLACEMENT_3D('',#173,#174,#175);
#177=CYLINDRICAL_SURFACE('',#176,2.9E0);
#178=ORIENTED_EDGE('',*,*,#162,.F.);
#180=ORIENTED_EDGE('',*,*,#179,.T.);
#181=ORIENTED_EDGE('',*,*,#166,.T.);
#183=ORIENTED_EDGE('',*,*,#182,.F.);
#184=EDGE_LOOP('',(#178,#180,#181,#183));
#185=FACE_OUTER_BOUND('',#184,.F.);
#186=ADVANCED_FACE('',(#185),#177,.T.);
#187=CARTESIAN_POINT('',(0.E0,0.E0,0.E0));
#188=DIRECTION('',(-1.E0,0.E0,0.E0));
#189=DIRECTION('',(0.E0,1.E0,0.E0));
#190=AXIS2_PLACEMENT_3D('',#187,#188,#189);
#191=PLANE('',#190);
#192=ORIENTED_EDGE('',*,*,#179,.F.);
#193=ORIENTED_EDGE('',*,*,#168,.T.);
#194=EDGE_LOOP('',(#192,#193));
#195=FACE_OUTER_BOUND('',#194,.F.);
#197=ORIENTED_EDGE('',*,*,#196,.T.);
#199=ORIENTED_EDGE('',*,*,#198,.T.);
#200=EDGE_LOOP('',(#197,#199));
#201=FACE_BOUND('',#200,.F.);
#203=ORIENTED_EDGE('',*,*,#202,.T.);
#205=ORIENTED_EDGE('',*,*,#204,.T.);
#206=EDGE_LOOP('',(#203,#205));
#207=FACE_BOUND('',#206,.F.);
#208=ADVANCED_FACE('',(#195,#201,#207),#191,.F.);
#209=CARTESIAN_POINT('',(0.E0,0.E0,-1.5E0));
#210=DIRECTION('',(1.E0,0.E0,0.E0));
#211=DIRECTION('',(0.E0,0.E0,-1.E0));
#212=AXIS2_PLACEMENT_3D('',#209,#210,#211);
#213=CYLINDRICAL_SURFACE('',#212,5.E-1);
#214=ORIENTED_EDGE('',*,*,#196,.F.);
#216=ORIENTED_EDGE('',*,*,#215,.T.);
#218=ORIENTED_EDGE('',*,*,#217,.T.);
#220=ORIENTED_EDGE('',*,*,#219,.F.);
#221=EDGE_LOOP('',(#214,#216,#218,#220));
#222=FACE_OUTER_BOUND('',#221,.F.);
#223=ADVANCED_FACE('',(#222),#213,.T.);
#224=CARTESIAN_POINT('',(0.E0,0.E0,-1.5E0));
#225=DIRECTION('',(1.E0,0.E0,0.E0));
#226=DIRECTION('',(0.E0,0.E0,-1.E0));
#227=AXIS2_PLACEMENT_3D('',#224,#225,#226);
#228=CYLINDRICAL_SURFACE('',#227,5.E-1);
#229=ORIENTED_EDGE('',*,*,#198,.F.);
#230=ORIENTED_EDGE('',*,*,#219,.T.);
#232=ORIENTED_EDGE('',*,*,#231,.T.);
#233=ORIENTED_EDGE('',*,*,#215,.F.);
#234=EDGE_LOOP('',(#229,#230,#232,#233));
#235=FACE_OUTER_BOUND('',#234,.F.);
#236=ADVANCED_FACE('',(#235),#228,.T.);
#237=CARTESIAN_POINT('',(2.36E1,0.E0,0.E0));
#238=DIRECTION('',(1.E0,0.E0,0.E0));
#239=DIRECTION('',(0.E0,0.E0,-1.E0));
#240=AXIS2_PLACEMENT_3D('',#237,#238,#239);
#241=PLANE('',#240);
#242=ORIENTED_EDGE('',*,*,#217,.F.);
#243=ORIENTED_EDGE('',*,*,#231,.F.);
#244=EDGE_LOOP('',(#242,#243));
#245=FACE_OUTER_BOUND('',#244,.F.);
#246=ADVANCED_FACE('',(#245),#241,.T.);
#247=CARTESIAN_POINT('',(2.36E1,0.E0,0.E0));
#248=DIRECTION('',(1.E0,0.E0,0.E0));
#249=DIRECTION('',(0.E0,0.E0,-1.E0));
#250=AXIS2_PLACEMENT_3D('',#247,#248,#249);
#251=PLANE('',#250);
#253=ORIENTED_EDGE('',*,*,#252,.F.);
#255=ORIENTED_EDGE('',*,*,#254,.F.);
#256=EDGE_LOOP('',(#253,#255));
#257=FACE_OUTER_BOUND('',#256,.F.);
#258=ADVANCED_FACE('',(#257),#251,.T.);
#259=CARTESIAN_POINT('',(0.E0,0.E0,1.5E0));
#260=DIRECTION('',(1.E0,0.E0,0.E0));
#261=DIRECTION('',(0.E0,0.E0,-1.E0));
#262=AXIS2_PLACEMENT_3D('',#259,#260,#261);
#263=CYLINDRICAL_SURFACE('',#262,5.E-1);
#264=ORIENTED_EDGE('',*,*,#202,.F.);
#266=ORIENTED_EDGE('',*,*,#265,.T.);
#267=ORIENTED_EDGE('',*,*,#252,.T.);
#269=ORIENTED_EDGE('',*,*,#268,.F.);
#270=EDGE_LOOP('',(#264,#266,#267,#269));
#271=FACE_OUTER_BOUND('',#270,.F.);
#272=ADVANCED_FACE('',(#271),#263,.T.);
#273=CARTESIAN_POINT('',(0.E0,0.E0,1.5E0));
#274=DIRECTION('',(1.E0,0.E0,0.E0));
#275=DIRECTION('',(0.E0,0.E0,-1.E0));
#276=AXIS2_PLACEMENT_3D('',#273,#274,#275);
#277=CYLINDRICAL_SURFACE('',#276,5.E-1);
#278=ORIENTED_EDGE('',*,*,#204,.F.);
#279=ORIENTED_EDGE('',*,*,#268,.T.);
#280=ORIENTED_EDGE('',*,*,#254,.T.);
#281=ORIENTED_EDGE('',*,*,#265,.F.);
#282=EDGE_LOOP('',(#278,#279,#280,#281));
#283=FACE_OUTER_BOUND('',#282,.F.);
#284=ADVANCED_FACE('',(#283),#277,.T.);
#285=CARTESIAN_POINT('',(-1.E0,0.E0,0.E0));
#286=DIRECTION('',(-1.E0,0.E0,0.E0));
#287=DIRECTION('',(0.E0,1.E0,0.E0));
#288=AXIS2_PLACEMENT_3D('',#285,#286,#287);
#289=PLANE('',#288);
#290=ORIENTED_EDGE('',*,*,#182,.T.);
#291=ORIENTED_EDGE('',*,*,#164,.F.);
#292=EDGE_LOOP('',(#290,#291));
#293=FACE_OUTER_BOUND('',#292,.F.);
#295=ORIENTED_EDGE('',*,*,#294,.T.);
#297=ORIENTED_EDGE('',*,*,#296,.F.);
#298=EDGE_LOOP('',(#295,#297));
#299=FACE_BOUND('',#298,.F.);
#300=ADVANCED_FACE('',(#293,#299),#289,.T.);
#301=CARTESIAN_POINT('',(4.E-1,0.E0,0.E0));
#302=DIRECTION('',(-1.E0,0.E0,0.E0));
#303=DIRECTION('',(0.E0,1.E0,0.E0));
#304=AXIS2_PLACEMENT_3D('',#301,#302,#303);
#305=CYLINDRICAL_SURFACE('',#304,2.5E0);
#307=ORIENTED_EDGE('',*,*,#306,.T.);
#309=ORIENTED_EDGE('',*,*,#308,.T.);
#311=ORIENTED_EDGE('',*,*,#310,.F.);
#312=ORIENTED_EDGE('',*,*,#294,.F.);
#313=EDGE_LOOP('',(#307,#309,#311,#312));
#314=FACE_OUTER_BOUND('',#313,.F.);
#315=ADVANCED_FACE('',(#314),#305,.T.);
#316=CARTESIAN_POINT('',(4.E-1,0.E0,0.E0));
#317=DIRECTION('',(-1.E0,0.E0,0.E0));
#318=DIRECTION('',(0.E0,1.E0,0.E0));
#319=AXIS2_PLACEMENT_3D('',#316,#317,#318);
#320=CYLINDRICAL_SURFACE('',#319,2.5E0);
#321=ORIENTED_EDGE('',*,*,#306,.F.);
#322=ORIENTED_EDGE('',*,*,#296,.T.);
#323=ORIENTED_EDGE('',*,*,#310,.T.);
#325=ORIENTED_EDGE('',*,*,#324,.F.);
#326=EDGE_LOOP('',(#321,#322,#323,#325));
#327=FACE_OUTER_BOUND('',#326,.F.);
#328=ADVANCED_FACE('',(#327),#320,.T.);
#329=CARTESIAN_POINT('',(-5.5E0,0.E0,0.E0));
#330=DIRECTION('',(-1.E0,0.E0,0.E0));
#331=DIRECTION('',(0.E0,1.E0,0.E0));
#332=AXIS2_PLACEMENT_3D('',#329,#330,#331);
#333=SPHERICAL_SURFACE('',#332,2.5E0);
#335=ORIENTED_EDGE('',*,*,#334,.F.);
#336=ORIENTED_EDGE('',*,*,#324,.T.);
#338=ORIENTED_EDGE('',*,*,#337,.T.);
#339=EDGE_LOOP('',(#335,#336,#338));
#340=FACE_OUTER_BOUND('',#339,.F.);
#341=ADVANCED_FACE('',(#340),#333,.T.);
#342=CARTESIAN_POINT('',(-5.5E0,0.E0,0.E0));
#343=DIRECTION('',(-1.E0,0.E0,0.E0));
#344=DIRECTION('',(0.E0,1.E0,0.E0));
#345=AXIS2_PLACEMENT_3D('',#342,#343,#344);
#346=SPHERICAL_SURFACE('',#345,2.5E0);
#347=ORIENTED_EDGE('',*,*,#334,.T.);
#348=ORIENTED_EDGE('',*,*,#337,.F.);
#349=ORIENTED_EDGE('',*,*,#308,.F.);
#350=EDGE_LOOP('',(#347,#348,#349));
#351=FACE_OUTER_BOUND('',#350,.F.);
#352=ADVANCED_FACE('',(#351),#346,.T.);
#356=DIMENSIONAL_EXPONENTS(0.E0,0.E0,0.E0,0.E0,0.E0,0.E0,0.E0);
#358=PLANE_ANGLE_MEASURE_WITH_UNIT(PLANE_ANGLE_MEASURE(1.745329251994E-2),#357);
#359=(CONVERSION_BASED_UNIT('DEGREE',#358)NAMED_UNIT(*)PLANE_ANGLE_UNIT());
#361=UNCERTAINTY_MEASURE_WITH_UNIT(LENGTH_MEASURE(3.264589919891E-3),#355,
'closure',
'Maximum model space distance between geometric entities at asserted connectivities');
#362=(GEOMETRIC_REPRESENTATION_CONTEXT(3)GLOBAL_UNCERTAINTY_ASSIGNED_CONTEXT((
#361))GLOBAL_UNIT_ASSIGNED_CONTEXT((#355,#359,#360))REPRESENTATION_CONTEXT
('ID1','3'));
#364=APPLICATION_CONTEXT(
'CONFIGURATION CONTROLLED 3D DESIGNS OF MECHANICAL PARTS AND ASSEMBLIES');
#365=APPLICATION_PROTOCOL_DEFINITION('international standard',
'config_control_design',1994,#364);
#366=DESIGN_CONTEXT('',#364,'design');
#367=MECHANICAL_CONTEXT('',#364,'mechanical');
#368=PRODUCT('LAMP','LAMP','NOT SPECIFIED',(#367));
#369=PRODUCT_DEFINITION_FORMATION_WITH_SPECIFIED_SOURCE('3','LAST_VERSION',#368,
.MADE.);
#373=PRODUCT_CATEGORY('part','');
#374=PRODUCT_RELATED_PRODUCT_CATEGORY('detail','',(#368));
#375=PRODUCT_CATEGORY_RELATIONSHIP('','',#373,#374);
#376=SECURITY_CLASSIFICATION_LEVEL('unclassified');
#377=SECURITY_CLASSIFICATION('','',#376);
#378=CC_DESIGN_SECURITY_CLASSIFICATION(#377,(#369));
#379=APPROVAL_STATUS('approved');
#380=APPROVAL(#379,'');
#381=CC_DESIGN_APPROVAL(#380,(#377,#369,#370));
#382=CALENDAR_DATE(124,17,9);
#383=COORDINATED_UNIVERSAL_TIME_OFFSET(3,0,.AHEAD.);
#384=LOCAL_TIME(18,45,3.6E1,#383);
#385=DATE_AND_TIME(#382,#384);
#386=APPROVAL_DATE_TIME(#385,#380);
#387=DATE_TIME_ROLE('creation_date');
#388=CC_DESIGN_DATE_AND_TIME_ASSIGNMENT(#385,#387,(#370));
#389=DATE_TIME_ROLE('classification_date');
#390=CC_DESIGN_DATE_AND_TIME_ASSIGNMENT(#385,#389,(#377));
#391=PERSON('UNSPECIFIED','UNSPECIFIED',$,$,$,$);
#392=ORGANIZATION('UNSPECIFIED','UNSPECIFIED','UNSPECIFIED');
#393=PERSON_AND_ORGANIZATION(#391,#392);
#394=APPROVAL_ROLE('approver');
#395=APPROVAL_PERSON_ORGANIZATION(#393,#380,#394);
#396=PERSON_AND_ORGANIZATION_ROLE('creator');
#397=CC_DESIGN_PERSON_AND_ORGANIZATION_ASSIGNMENT(#393,#396,(#369,#370));
#398=PERSON_AND_ORGANIZATION_ROLE('design_supplier');
#399=CC_DESIGN_PERSON_AND_ORGANIZATION_ASSIGNMENT(#393,#398,(#369));
#400=PERSON_AND_ORGANIZATION_ROLE('classification_officer');
#401=CC_DESIGN_PERSON_AND_ORGANIZATION_ASSIGNMENT(#393,#400,(#377));
#402=PERSON_AND_ORGANIZATION_ROLE('design_owner');
#403=CC_DESIGN_PERSON_AND_ORGANIZATION_ASSIGNMENT(#393,#402,(#368));
#5=CIRCLE('',#4,2.9E0);
#14=CIRCLE('',#13,2.9E0);
#23=CIRCLE('',#22,5.E-1);
#28=CIRCLE('',#27,5.E-1);
#33=CIRCLE('',#32,5.E-1);
#38=CIRCLE('',#37,5.E-1);
#51=CIRCLE('',#50,5.E-1);
#56=CIRCLE('',#55,5.E-1);
#61=CIRCLE('',#60,5.E-1);
#66=CIRCLE('',#65,5.E-1);
#79=CIRCLE('',#78,2.9E0);
#84=CIRCLE('',#83,2.9E0);
#89=CIRCLE('',#88,2.5E0);
#98=CIRCLE('',#97,2.5E0);
#107=CIRCLE('',#106,2.5E0);
#112=CIRCLE('',#111,2.5E0);
#117=CIRCLE('',#116,2.5E0);
#122=CIRCLE('',#121,2.5E0);
#162=EDGE_CURVE('',#125,#126,#9,.T.);
#164=EDGE_CURVE('',#126,#136,#84,.T.);
#166=EDGE_CURVE('',#135,#136,#18,.T.);
#168=EDGE_CURVE('',#125,#135,#5,.T.);
#179=EDGE_CURVE('',#125,#135,#14,.T.);
#182=EDGE_CURVE('',#126,#136,#79,.T.);
#196=EDGE_CURVE('',#151,#152,#23,.T.);
#198=EDGE_CURVE('',#152,#151,#28,.T.);
#202=EDGE_CURVE('',#155,#156,#33,.T.);
#204=EDGE_CURVE('',#156,#155,#38,.T.);
#215=EDGE_CURVE('',#151,#143,#42,.T.);
#217=EDGE_CURVE('',#143,#144,#51,.T.);
#219=EDGE_CURVE('',#152,#144,#46,.T.);
#231=EDGE_CURVE('',#144,#143,#56,.T.);
#252=EDGE_CURVE('',#147,#148,#61,.T.);
#254=EDGE_CURVE('',#148,#147,#66,.T.);
#265=EDGE_CURVE('',#155,#147,#70,.T.);
#268=EDGE_CURVE('',#156,#148,#74,.T.);
#294=EDGE_CURVE('',#129,#139,#89,.T.);
#296=EDGE_CURVE('',#129,#139,#98,.T.);
#306=EDGE_CURVE('',#129,#130,#93,.T.);
#308=EDGE_CURVE('',#130,#140,#122,.T.);
#310=EDGE_CURVE('',#139,#140,#102,.T.);
#324=EDGE_CURVE('',#130,#140,#112,.T.);
#334=EDGE_CURVE('',#130,#132,#107,.T.);
#337=EDGE_CURVE('',#140,#132,#117,.T.);
#353=CLOSED_SHELL('',(#172,#186,#208,#223,#236,#246,#258,#272,#284,#300,#315,
#328,#341,#352));
#354=MANIFOLD_SOLID_BREP('',#353);
#355=(LENGTH_UNIT()NAMED_UNIT(*)SI_UNIT(.MILLI.,.METRE.));
#357=(NAMED_UNIT(*)PLANE_ANGLE_UNIT()SI_UNIT($,.RADIAN.));
#360=(NAMED_UNIT(*)SI_UNIT($,.STERADIAN.)SOLID_ANGLE_UNIT());
#363=ADVANCED_BREP_SHAPE_REPRESENTATION('',(#354),#362);
#370=PRODUCT_DEFINITION('design','',#369,#366);
#371=PRODUCT_DEFINITION_SHAPE('','SHAPE FOR LAMP.',#370);
#372=SHAPE_DEFINITION_REPRESENTATION(#371,#363);
ENDSEC;
END-ISO-10303-21;
